ISO-10303-21;
HEADER;
FILE_DESCRIPTION(('CATIA V5 STEP Exchange'),'2;1');

FILE_NAME('\\\\stisrv.epfl.ch\\sti-sgm\\sgm-ens\\soubiell\\Enseignement\\ME-101-106 - Construction M\X2\00E9\X0\canique I\\1. Supports de cours\\SW1\\Fichiers sources et illustrations\\Dessin Technique - Introduction - Mod\X2\00E8\X0\les 3D CATIA (exercice 2)\\EXERCICE 2 - PIECE D.stp','2023-10-16T12:12:29+00:00',('none'),('none'),'CATIA Unofficial Packaging Version SP3','CATIA V5 STEP AP203','none');

FILE_SCHEMA(('CONFIG_CONTROL_DESIGN'));

ENDSEC;
DATA;
#5=PRODUCT('EXERCICE 2 - PIECE D','','',(#2)) ;
#1=APPLICATION_CONTEXT('configuration controlled 3D design of mechanical parts and assemblies') ;
#14=PRODUCT_DEFINITION('',' ',#6,#3) ;
#16=SECURITY_CLASSIFICATION(' ',' ',#15) ;
#15=SECURITY_CLASSIFICATION_LEVEL('unclassified') ;
#46=CARTESIAN_POINT(' ',(0.,0.,0.)) ;
#51=CARTESIAN_POINT('Axis2P3D Location',(-25.,0.,30.)) ;
#56=CARTESIAN_POINT('Line Origine',(-25.,5.,30.)) ;
#60=CARTESIAN_POINT('Vertex',(-25.,5.55111512313E-017,30.)) ;
#62=CARTESIAN_POINT('Vertex',(-25.,10.,30.)) ;
#65=CARTESIAN_POINT('Line Origine',(-12.5,0.,25.)) ;
#69=CARTESIAN_POINT('Vertex',(0.,5.55111512313E-017,20.)) ;
#72=CARTESIAN_POINT('Line Origine',(0.,5.,20.)) ;
#76=CARTESIAN_POINT('Vertex',(-1.7763568394E-015,10.,20.)) ;
#79=CARTESIAN_POINT('Line Origine',(-12.5,10.,25.)) ;
#91=CARTESIAN_POINT('Axis2P3D Location',(0.,10.,0.)) ;
#96=CARTESIAN_POINT('Line Origine',(-5.,10.,10.)) ;
#100=CARTESIAN_POINT('Vertex',(0.,10.,10.)) ;
#102=CARTESIAN_POINT('Vertex',(-10.,10.,10.)) ;
#105=CARTESIAN_POINT('Line Origine',(-17.5,10.,10.)) ;
#109=CARTESIAN_POINT('Vertex',(-25.,10.,10.)) ;
#112=CARTESIAN_POINT('Line Origine',(-25.,10.,20.)) ;
#117=CARTESIAN_POINT('Line Origine',(4.4408920985E-016,10.,15.)) ;
#130=CARTESIAN_POINT('Axis2P3D Location',(0.,0.,10.)) ;
#135=CARTESIAN_POINT('Line Origine',(-10.,5.,10.)) ;
#139=CARTESIAN_POINT('Vertex',(-10.,5.55111512313E-017,10.)) ;
#142=CARTESIAN_POINT('Line Origine',(0.,5.,10.)) ;
#146=CARTESIAN_POINT('Vertex',(0.,5.55111512313E-017,10.)) ;
#149=CARTESIAN_POINT('Line Origine',(-5.,0.,10.)) ;
#161=CARTESIAN_POINT('Axis2P3D Location',(8.881784197E-016,0.,20.)) ;
#166=CARTESIAN_POINT('Line Origine',(4.4408920985E-016,0.,15.)) ;
#178=CARTESIAN_POINT('Axis2P3D Location',(0.,0.,0.)) ;
#183=CARTESIAN_POINT('Line Origine',(-25.,12.5,0.)) ;
#187=CARTESIAN_POINT('Vertex',(-25.,25.,0.)) ;
#189=CARTESIAN_POINT('Vertex',(-25.,5.55111512313E-017,0.)) ;
#192=CARTESIAN_POINT('Line Origine',(-17.5,25.,0.)) ;
#196=CARTESIAN_POINT('Vertex',(-10.,25.,0.)) ;
#199=CARTESIAN_POINT('Line Origine',(-10.,12.5,0.)) ;
#203=CARTESIAN_POINT('Vertex',(-10.,5.55111512313E-017,0.)) ;
#206=CARTESIAN_POINT('Line Origine',(-17.5,5.55111512313E-017,0.)) ;
#218=CARTESIAN_POINT('Axis2P3D Location',(-10.,0.,0.)) ;
#223=CARTESIAN_POINT('Line Origine',(-10.,0.,5.)) ;
#228=CARTESIAN_POINT('Line Origine',(-10.,25.,5.)) ;
#232=CARTESIAN_POINT('Vertex',(-10.,25.,10.)) ;
#235=CARTESIAN_POINT('Line Origine',(-10.,17.5,10.)) ;
#248=CARTESIAN_POINT('Axis2P3D Location',(-10.,25.,0.)) ;
#253=CARTESIAN_POINT('Line Origine',(-25.,25.,5.)) ;
#257=CARTESIAN_POINT('Vertex',(-25.,25.,10.)) ;
#260=CARTESIAN_POINT('Line Origine',(-17.5,25.,10.)) ;
#272=CARTESIAN_POINT('Line Origine',(-25.,17.5,10.)) ;
#284=CARTESIAN_POINT('Axis2P3D Location',(-25.,5.55111512313E-017,0.)) ;
#289=CARTESIAN_POINT('Line Origine',(-25.,5.55111512313E-017,15.)) ;
#303=CARTESIAN_POINT('Axis2P3D Location',(-25.,25.,0.)) ;
#52=DIRECTION('Axis2P3D Direction',(0.371390676354,-0.,0.928476690885)) ;
#53=DIRECTION('Axis2P3D XDirection',(0.928476690885,0.,-0.371390676354)) ;
#57=DIRECTION('Vector Direction',(0.,1.,0.)) ;
#66=DIRECTION('Vector Direction',(0.928476690885,0.,-0.371390676354)) ;
#73=DIRECTION('Vector Direction',(0.,1.,0.)) ;
#80=DIRECTION('Vector Direction',(0.928476690885,0.,-0.371390676354)) ;
#92=DIRECTION('Axis2P3D Direction',(0.,1.,-0.)) ;
#93=DIRECTION('Axis2P3D XDirection',(-1.,0.,0.)) ;
#97=DIRECTION('Vector Direction',(-1.,0.,0.)) ;
#106=DIRECTION('Vector Direction',(-1.,0.,0.)) ;
#113=DIRECTION('Vector Direction',(0.,0.,1.)) ;
#118=DIRECTION('Vector Direction',(-8.881784197E-017,0.,-1.)) ;
#131=DIRECTION('Axis2P3D Direction',(0.,0.,1.)) ;
#132=DIRECTION('Axis2P3D XDirection',(1.,0.,0.)) ;
#136=DIRECTION('Vector Direction',(0.,1.,0.)) ;
#143=DIRECTION('Vector Direction',(0.,1.,0.)) ;
#150=DIRECTION('Vector Direction',(-1.,0.,0.)) ;
#162=DIRECTION('Axis2P3D Direction',(1.,0.,-8.881784197E-017)) ;
#163=DIRECTION('Axis2P3D XDirection',(-8.881784197E-017,0.,-1.)) ;
#167=DIRECTION('Vector Direction',(-8.881784197E-017,0.,-1.)) ;
#179=DIRECTION('Axis2P3D Direction',(0.,0.,1.)) ;
#180=DIRECTION('Axis2P3D XDirection',(1.,0.,0.)) ;
#184=DIRECTION('Vector Direction',(0.,-1.,0.)) ;
#193=DIRECTION('Vector Direction',(-1.,0.,0.)) ;
#200=DIRECTION('Vector Direction',(0.,1.,0.)) ;
#207=DIRECTION('Vector Direction',(1.,0.,0.)) ;
#219=DIRECTION('Axis2P3D Direction',(1.,0.,0.)) ;
#220=DIRECTION('Axis2P3D XDirection',(0.,1.,0.)) ;
#224=DIRECTION('Vector Direction',(0.,0.,1.)) ;
#229=DIRECTION('Vector Direction',(0.,0.,1.)) ;
#236=DIRECTION('Vector Direction',(0.,1.,0.)) ;
#249=DIRECTION('Axis2P3D Direction',(0.,1.,-0.)) ;
#250=DIRECTION('Axis2P3D XDirection',(-1.,0.,0.)) ;
#254=DIRECTION('Vector Direction',(0.,0.,1.)) ;
#261=DIRECTION('Vector Direction',(-1.,0.,0.)) ;
#273=DIRECTION('Vector Direction',(0.,-1.,0.)) ;
#285=DIRECTION('Axis2P3D Direction',(0.,-1.,0.)) ;
#286=DIRECTION('Axis2P3D XDirection',(1.,0.,0.)) ;
#290=DIRECTION('Vector Direction',(0.,0.,1.)) ;
#304=DIRECTION('Axis2P3D Direction',(-1.,0.,0.)) ;
#305=DIRECTION('Axis2P3D XDirection',(0.,-1.,0.)) ;
#47=AXIS2_PLACEMENT_3D(' ',#46,$,$) ;
#54=AXIS2_PLACEMENT_3D('Plane Axis2P3D',#51,#52,#53) ;
#94=AXIS2_PLACEMENT_3D('Plane Axis2P3D',#91,#92,#93) ;
#133=AXIS2_PLACEMENT_3D('Plane Axis2P3D',#130,#131,#132) ;
#164=AXIS2_PLACEMENT_3D('Plane Axis2P3D',#161,#162,#163) ;
#181=AXIS2_PLACEMENT_3D('Plane Axis2P3D',#178,#179,#180) ;
#221=AXIS2_PLACEMENT_3D('Plane Axis2P3D',#218,#219,#220) ;
#251=AXIS2_PLACEMENT_3D('Plane Axis2P3D',#248,#249,#250) ;
#287=AXIS2_PLACEMENT_3D('Plane Axis2P3D',#284,#285,#286) ;
#306=AXIS2_PLACEMENT_3D('Plane Axis2P3D',#303,#304,#305) ;
#40=PRODUCT_DEFINITION_SHAPE(' ',' ',#14) ;
#31=APPROVAL_PERSON_ORGANIZATION(#25,#21,#19) ;
#25=PERSON_AND_ORGANIZATION(#22,#23) ;
#22=PERSON(' ',' ',' ',$,$,$) ;
#23=ORGANIZATION(' ',' ',' ') ;
#21=APPROVAL(#20,' ') ;
#20=APPROVAL_STATUS('not_yet_approved') ;
#19=APPROVAL_ROLE('APPROVER') ;
#13=DATE_AND_TIME(#11,#12) ;
#12=LOCAL_TIME(14,12,28.,#10) ;
#10=COORDINATED_UNIVERSAL_TIME_OFFSET(0,0,.AHEAD.) ;
#85=ORIENTED_EDGE('',*,*,#64,.F.) ;
#86=ORIENTED_EDGE('',*,*,#71,.T.) ;
#87=ORIENTED_EDGE('',*,*,#78,.T.) ;
#88=ORIENTED_EDGE('',*,*,#83,.F.) ;
#123=ORIENTED_EDGE('',*,*,#104,.T.) ;
#124=ORIENTED_EDGE('',*,*,#111,.T.) ;
#125=ORIENTED_EDGE('',*,*,#116,.T.) ;
#126=ORIENTED_EDGE('',*,*,#83,.T.) ;
#127=ORIENTED_EDGE('',*,*,#121,.T.) ;
#155=ORIENTED_EDGE('',*,*,#141,.T.) ;
#156=ORIENTED_EDGE('',*,*,#104,.F.) ;
#157=ORIENTED_EDGE('',*,*,#148,.F.) ;
#158=ORIENTED_EDGE('',*,*,#153,.T.) ;
#172=ORIENTED_EDGE('',*,*,#78,.F.) ;
#173=ORIENTED_EDGE('',*,*,#170,.T.) ;
#174=ORIENTED_EDGE('',*,*,#148,.T.) ;
#175=ORIENTED_EDGE('',*,*,#121,.F.) ;
#212=ORIENTED_EDGE('',*,*,#191,.F.) ;
#213=ORIENTED_EDGE('',*,*,#198,.F.) ;
#214=ORIENTED_EDGE('',*,*,#205,.F.) ;
#215=ORIENTED_EDGE('',*,*,#210,.F.) ;
#241=ORIENTED_EDGE('',*,*,#227,.F.) ;
#242=ORIENTED_EDGE('',*,*,#205,.T.) ;
#243=ORIENTED_EDGE('',*,*,#234,.T.) ;
#244=ORIENTED_EDGE('',*,*,#239,.F.) ;
#245=ORIENTED_EDGE('',*,*,#141,.F.) ;
#266=ORIENTED_EDGE('',*,*,#234,.F.) ;
#267=ORIENTED_EDGE('',*,*,#198,.T.) ;
#268=ORIENTED_EDGE('',*,*,#259,.T.) ;
#269=ORIENTED_EDGE('',*,*,#264,.F.) ;
#278=ORIENTED_EDGE('',*,*,#239,.T.) ;
#279=ORIENTED_EDGE('',*,*,#264,.T.) ;
#280=ORIENTED_EDGE('',*,*,#276,.T.) ;
#281=ORIENTED_EDGE('',*,*,#111,.F.) ;
#295=ORIENTED_EDGE('',*,*,#170,.F.) ;
#296=ORIENTED_EDGE('',*,*,#71,.F.) ;
#297=ORIENTED_EDGE('',*,*,#293,.F.) ;
#298=ORIENTED_EDGE('',*,*,#210,.T.) ;
#299=ORIENTED_EDGE('',*,*,#227,.T.) ;
#300=ORIENTED_EDGE('',*,*,#153,.F.) ;
#309=ORIENTED_EDGE('',*,*,#293,.T.) ;
#310=ORIENTED_EDGE('',*,*,#64,.T.) ;
#311=ORIENTED_EDGE('',*,*,#116,.F.) ;
#312=ORIENTED_EDGE('',*,*,#276,.F.) ;
#313=ORIENTED_EDGE('',*,*,#259,.F.) ;
#314=ORIENTED_EDGE('',*,*,#191,.T.) ;
#50=CLOSED_SHELL('Closed Shell',(#90,#129,#160,#177,#217,#247,#271,#283,#302,#316)) ;
#58=VECTOR('Line Direction',#57,1.) ;
#67=VECTOR('Line Direction',#66,1.) ;
#74=VECTOR('Line Direction',#73,1.) ;
#81=VECTOR('Line Direction',#80,1.) ;
#98=VECTOR('Line Direction',#97,1.) ;
#107=VECTOR('Line Direction',#106,1.) ;
#114=VECTOR('Line Direction',#113,1.) ;
#119=VECTOR('Line Direction',#118,1.) ;
#137=VECTOR('Line Direction',#136,1.) ;
#144=VECTOR('Line Direction',#143,1.) ;
#151=VECTOR('Line Direction',#150,1.) ;
#168=VECTOR('Line Direction',#167,1.) ;
#185=VECTOR('Line Direction',#184,1.) ;
#194=VECTOR('Line Direction',#193,1.) ;
#201=VECTOR('Line Direction',#200,1.) ;
#208=VECTOR('Line Direction',#207,1.) ;
#225=VECTOR('Line Direction',#224,1.) ;
#230=VECTOR('Line Direction',#229,1.) ;
#237=VECTOR('Line Direction',#236,1.) ;
#255=VECTOR('Line Direction',#254,1.) ;
#262=VECTOR('Line Direction',#261,1.) ;
#274=VECTOR('Line Direction',#273,1.) ;
#291=VECTOR('Line Direction',#290,1.) ;
#318=ADVANCED_BREP_SHAPE_REPRESENTATION('NONE',(#317),#45) ;
#48=SHAPE_REPRESENTATION(' ',(#47),#45) ;
#90=ADVANCED_FACE('Corps principal',(#89),#55,.T.) ;
#129=ADVANCED_FACE('Corps principal',(#128),#95,.T.) ;
#160=ADVANCED_FACE('Corps principal',(#159),#134,.F.) ;
#177=ADVANCED_FACE('Corps principal',(#176),#165,.T.) ;
#217=ADVANCED_FACE('Corps principal',(#216),#182,.F.) ;
#247=ADVANCED_FACE('Corps principal',(#246),#222,.T.) ;
#271=ADVANCED_FACE('Corps principal',(#270),#252,.T.) ;
#283=ADVANCED_FACE('Corps principal',(#282),#134,.T.) ;
#302=ADVANCED_FACE('Corps principal',(#301),#288,.T.) ;
#316=ADVANCED_FACE('Corps principal',(#315),#307,.T.) ;
#4=APPLICATION_PROTOCOL_DEFINITION('international standard','config_control_design',1994,#1) ;
#32=APPROVAL_DATE_TIME(#13,#21) ;
#317=MANIFOLD_SOLID_BREP('Corps principal',#50) ;
#11=CALENDAR_DATE(2023,16,10) ;
#30=CC_DESIGN_APPROVAL(#21,(#16,#6,#14)) ;
#18=CC_DESIGN_DATE_AND_TIME_ASSIGNMENT(#13,#17,(#16)) ;
#29=CC_DESIGN_DATE_AND_TIME_ASSIGNMENT(#13,#28,(#14)) ;
#17=DATE_TIME_ROLE('classification_date') ;
#28=DATE_TIME_ROLE('creation_date') ;
#27=CC_DESIGN_PERSON_AND_ORGANIZATION_ASSIGNMENT(#25,#26,(#16)) ;
#33=CC_DESIGN_PERSON_AND_ORGANIZATION_ASSIGNMENT(#25,#34,(#6)) ;
#35=CC_DESIGN_PERSON_AND_ORGANIZATION_ASSIGNMENT(#25,#36,(#6,#14)) ;
#37=CC_DESIGN_PERSON_AND_ORGANIZATION_ASSIGNMENT(#25,#38,(#5)) ;
#26=PERSON_AND_ORGANIZATION_ROLE('classification_officer') ;
#34=PERSON_AND_ORGANIZATION_ROLE('design_supplier') ;
#36=PERSON_AND_ORGANIZATION_ROLE('creator') ;
#38=PERSON_AND_ORGANIZATION_ROLE('design_owner') ;
#39=CC_DESIGN_SECURITY_CLASSIFICATION(#16,(#6)) ;
#319=SHAPE_REPRESENTATION_RELATIONSHIP(' ',' ',#48,#318) ;
#3=DESIGN_CONTEXT(' ',#1,'design') ;
#64=EDGE_CURVE('',#61,#63,#59,.T.) ;
#71=EDGE_CURVE('',#61,#70,#68,.T.) ;
#78=EDGE_CURVE('',#70,#77,#75,.T.) ;
#83=EDGE_CURVE('',#63,#77,#82,.T.) ;
#104=EDGE_CURVE('',#101,#103,#99,.T.) ;
#111=EDGE_CURVE('',#103,#110,#108,.T.) ;
#116=EDGE_CURVE('',#110,#63,#115,.T.) ;
#121=EDGE_CURVE('',#77,#101,#120,.T.) ;
#141=EDGE_CURVE('',#140,#103,#138,.T.) ;
#148=EDGE_CURVE('',#147,#101,#145,.T.) ;
#153=EDGE_CURVE('',#147,#140,#152,.T.) ;
#170=EDGE_CURVE('',#70,#147,#169,.T.) ;
#191=EDGE_CURVE('',#188,#190,#186,.T.) ;
#198=EDGE_CURVE('',#197,#188,#195,.T.) ;
#205=EDGE_CURVE('',#204,#197,#202,.T.) ;
#210=EDGE_CURVE('',#190,#204,#209,.T.) ;
#227=EDGE_CURVE('',#204,#140,#226,.T.) ;
#234=EDGE_CURVE('',#197,#233,#231,.T.) ;
#239=EDGE_CURVE('',#103,#233,#238,.T.) ;
#259=EDGE_CURVE('',#188,#258,#256,.T.) ;
#264=EDGE_CURVE('',#233,#258,#263,.T.) ;
#276=EDGE_CURVE('',#258,#110,#275,.T.) ;
#293=EDGE_CURVE('',#190,#61,#292,.T.) ;
#84=EDGE_LOOP('',(#85,#86,#87,#88)) ;
#122=EDGE_LOOP('',(#123,#124,#125,#126,#127)) ;
#154=EDGE_LOOP('',(#155,#156,#157,#158)) ;
#171=EDGE_LOOP('',(#172,#173,#174,#175)) ;
#211=EDGE_LOOP('',(#212,#213,#214,#215)) ;
#240=EDGE_LOOP('',(#241,#242,#243,#244,#245)) ;
#265=EDGE_LOOP('',(#266,#267,#268,#269)) ;
#277=EDGE_LOOP('',(#278,#279,#280,#281)) ;
#294=EDGE_LOOP('',(#295,#296,#297,#298,#299,#300)) ;
#308=EDGE_LOOP('',(#309,#310,#311,#312,#313,#314)) ;
#89=FACE_OUTER_BOUND('',#84,.T.) ;
#128=FACE_OUTER_BOUND('',#122,.T.) ;
#159=FACE_OUTER_BOUND('',#154,.T.) ;
#176=FACE_OUTER_BOUND('',#171,.T.) ;
#216=FACE_OUTER_BOUND('',#211,.T.) ;
#246=FACE_OUTER_BOUND('',#240,.T.) ;
#270=FACE_OUTER_BOUND('',#265,.T.) ;
#282=FACE_OUTER_BOUND('',#277,.T.) ;
#301=FACE_OUTER_BOUND('',#294,.T.) ;
#315=FACE_OUTER_BOUND('',#308,.T.) ;
#44=UNCERTAINTY_MEASURE_WITH_UNIT(LENGTH_MEASURE(0.005),#41,'distance_accuracy_value','CONFUSED CURVE UNCERTAINTY') ;
#59=LINE('Line',#56,#58) ;
#68=LINE('Line',#65,#67) ;
#75=LINE('Line',#72,#74) ;
#82=LINE('Line',#79,#81) ;
#99=LINE('Line',#96,#98) ;
#108=LINE('Line',#105,#107) ;
#115=LINE('Line',#112,#114) ;
#120=LINE('Line',#117,#119) ;
#138=LINE('Line',#135,#137) ;
#145=LINE('Line',#142,#144) ;
#152=LINE('Line',#149,#151) ;
#169=LINE('Line',#166,#168) ;
#186=LINE('Line',#183,#185) ;
#195=LINE('Line',#192,#194) ;
#202=LINE('Line',#199,#201) ;
#209=LINE('Line',#206,#208) ;
#226=LINE('Line',#223,#225) ;
#231=LINE('Line',#228,#230) ;
#238=LINE('Line',#235,#237) ;
#256=LINE('Line',#253,#255) ;
#263=LINE('Line',#260,#262) ;
#275=LINE('Line',#272,#274) ;
#292=LINE('Line',#289,#291) ;
#2=MECHANICAL_CONTEXT(' ',#1,'mechanical') ;
#24=PERSONAL_ADDRESS(' ',' ',' ',' ',' ',' ',' ',' ',' ',' ',' ',' ',(#22),' ') ;
#55=PLANE('',#54) ;
#95=PLANE('',#94) ;
#134=PLANE('',#133) ;
#165=PLANE('',#164) ;
#182=PLANE('',#181) ;
#222=PLANE('',#221) ;
#252=PLANE('',#251) ;
#288=PLANE('',#287) ;
#307=PLANE('',#306) ;
#7=PRODUCT_CATEGORY('part',$) ;
#9=PRODUCT_CATEGORY_RELATIONSHIP(' ',' ',#7,#8) ;
#6=PRODUCT_DEFINITION_FORMATION_WITH_SPECIFIED_SOURCE('',' ',#5,.NOT_KNOWN.) ;
#8=PRODUCT_RELATED_PRODUCT_CATEGORY('detail',$,(#5)) ;
#49=SHAPE_DEFINITION_REPRESENTATION(#40,#48) ;
#61=VERTEX_POINT('',#60) ;
#63=VERTEX_POINT('',#62) ;
#70=VERTEX_POINT('',#69) ;
#77=VERTEX_POINT('',#76) ;
#101=VERTEX_POINT('',#100) ;
#103=VERTEX_POINT('',#102) ;
#110=VERTEX_POINT('',#109) ;
#140=VERTEX_POINT('',#139) ;
#147=VERTEX_POINT('',#146) ;
#188=VERTEX_POINT('',#187) ;
#190=VERTEX_POINT('',#189) ;
#197=VERTEX_POINT('',#196) ;
#204=VERTEX_POINT('',#203) ;
#233=VERTEX_POINT('',#232) ;
#258=VERTEX_POINT('',#257) ;
#41=(LENGTH_UNIT()NAMED_UNIT(*)SI_UNIT(.MILLI.,.METRE.)) ;
#42=(NAMED_UNIT(*)PLANE_ANGLE_UNIT()SI_UNIT($,.RADIAN.)) ;
#43=(NAMED_UNIT(*)SI_UNIT($,.STERADIAN.)SOLID_ANGLE_UNIT()) ;
#45=(GEOMETRIC_REPRESENTATION_CONTEXT(3)GLOBAL_UNCERTAINTY_ASSIGNED_CONTEXT((#44))GLOBAL_UNIT_ASSIGNED_CONTEXT((#41,#42,#43))REPRESENTATION_CONTEXT(' ',' ')) ;
ENDSEC;
END-ISO-10303-21;
